ISO-10303-21;
HEADER;
FILE_DESCRIPTION (( 'STEP AP203' ),
    '1' );
FILE_NAME ('N-SF1-BPBSC-20-620-1000.STEP',
    '2021-01-05T02:14:40',
    ( '' ),
    ( '' ),
    'SwSTEP 2.0',
    'SolidWorks 2020',
    '' );
FILE_SCHEMA (( 'CONFIG_CONTROL_DESIGN' ));
ENDSEC;

DATA;
#1 = PLANE ( 'NONE',  #121 ) ;
#2 = ORIENTED_EDGE ( 'NONE', *, *, #221, .T. ) ;
#3 = CARTESIAN_POINT ( 'NONE',  ( 10.00000000000000178, 9.999999999999998224, 10.00000000000000000 ) ) ;
#4 = AXIS2_PLACEMENT_3D ( 'NONE', #32, #133, #92 ) ;
#5 = PLANE ( 'NONE',  #70 ) ;
#6 = PRODUCT_DEFINITION_SHAPE ( 'NONE', 'NONE',  #239 ) ;
#7 = DIRECTION ( 'NONE',  ( -0.7071067811865475727, -0.7071067811865474617, 0.000000000000000000 ) ) ;
#8 = EDGE_CURVE ( 'NONE', #321, #263, #175, .T. ) ;
#9 = FACE_OUTER_BOUND ( 'NONE', #214, .T. ) ;
#10 = LINE ( 'NONE', #12, #317 ) ;
#11 = APPROVAL_DATE_TIME ( #236, #20 ) ;
#12 = CARTESIAN_POINT ( 'NONE',  ( -9.999999999999998224, -10.00000000000000000, 10.00000000000000000 ) ) ;
#13 = CC_DESIGN_PERSON_AND_ORGANIZATION_ASSIGNMENT ( #16, #285, ( #239 ) ) ;
#14 = DATE_TIME_ROLE ( 'creation_date' ) ;
#15 = VERTEX_POINT ( 'NONE', #23 ) ;
#16 = PERSON_AND_ORGANIZATION ( #97, #264 ) ;
#17 = EDGE_CURVE ( 'NONE', #120, #297, #75, .T. ) ;
#18 = EDGE_CURVE ( 'NONE', #120, #295, #172, .T. ) ;
#19 = VECTOR ( 'NONE', #29, 1000.000000000000000 ) ;
#20 = APPROVAL ( #95, 'UNSPECIFIED' ) ;
#21 = VERTEX_POINT ( 'NONE', #271 ) ;
#22 = VECTOR ( 'NONE', #301, 1000.000000000000000 ) ;
#23 = CARTESIAN_POINT ( 'NONE',  ( -10.00000000000000178, -9.999999999999996447, -10.00000000000000000 ) ) ;
#24 = VECTOR ( 'NONE', #25, 1000.000000000000000 ) ;
#25 = DIRECTION ( 'NONE',  ( 2.220446049250313081E-16, 1.000000000000000000, 0.000000000000000000 ) ) ;
#26 = EDGE_CURVE ( 'NONE', #74, #21, #318, .T. ) ;
#27 = EDGE_LOOP ( 'NONE', ( #123, #129, #289, #287 ) ) ;
#28 = CARTESIAN_POINT ( 'NONE',  ( 10.00000000000000178, 9.999999999999998224, -10.00000000000000000 ) ) ;
#29 = DIRECTION ( 'NONE',  ( 1.000000000000000000, 0.000000000000000000, 0.000000000000000000 ) ) ;
#30 = ADVANCED_FACE ( 'NONE', ( #267 ), #131, .F. ) ;
#31 = EDGE_CURVE ( 'NONE', #15, #240, #320, .T. ) ;
#32 = CARTESIAN_POINT ( 'NONE',  ( 0.000000000000000000, 0.000000000000000000, 10.00000000000000000 ) ) ;
#33 = CC_DESIGN_PERSON_AND_ORGANIZATION_ASSIGNMENT ( #283, #281, ( #38 ) ) ;
#34 = CARTESIAN_POINT ( 'NONE',  ( 10.00000000000000000, 10.00000000000000000, 10.00000000000000000 ) ) ;
#35 = CARTESIAN_POINT ( 'NONE',  ( -9.999999999999998224, 10.00000000000000355, 10.00000000000000000 ) ) ;
#36 = CARTESIAN_POINT ( 'NONE',  ( 10.00000000000000000, 10.00000000000000000, 10.00000000000000000 ) ) ;
#37 = CARTESIAN_POINT ( 'NONE',  ( 10.00000000000000000, 10.00000000000000000, 10.00000000000000000 ) ) ;
#38 = PRODUCT_DEFINITION_FORMATION_WITH_SPECIFIED_SOURCE ( 'ANY', '', #59, .NOT_KNOWN. ) ;
#39 = APPROVAL_ROLE ( '' ) ;
#40 = EDGE_LOOP ( 'NONE', ( #210, #245, #272 ) ) ;
#41 = ORIENTED_EDGE ( 'NONE', *, *, #291, .T. ) ;
#42 = APPROVAL_ROLE ( '' ) ;
#43 = ORIENTED_EDGE ( 'NONE', *, *, #31, .F. ) ;
#44 = APPROVAL_DATE_TIME ( #93, #45 ) ;
#45 = APPROVAL ( #209, 'UNSPECIFIED' ) ;
#46 = CC_DESIGN_SECURITY_CLASSIFICATION ( #241, ( #38 ) ) ;
#47 = EDGE_LOOP ( 'NONE', ( #191, #242, #49, #2 ) ) ;
#48 = ORIENTED_EDGE ( 'NONE', *, *, #65, .F. ) ;
#49 = ORIENTED_EDGE ( 'NONE', *, *, #136, .F. ) ;
#50 = CARTESIAN_POINT ( 'NONE',  ( 10.00000000000000000, 10.00000000000000000, 10.00000000000000000 ) ) ;
#51 = DIRECTION ( 'NONE',  ( 1.000000000000000000, -2.220446049250313081E-16, 0.000000000000000000 ) ) ;
#52 = PERSON_AND_ORGANIZATION_ROLE ( 'design_owner' ) ;
#53 = ORIENTED_EDGE ( 'NONE', *, *, #106, .F. ) ;
#54 = CC_DESIGN_APPROVAL ( #109, ( #38 ) ) ;
#55 = CARTESIAN_POINT ( 'NONE',  ( 10.00000000000000000, 10.00000000000000000, -10.00000000000000000 ) ) ;
#56 = EDGE_CURVE ( 'NONE', #321, #15, #105, .T. ) ;
#57 = CARTESIAN_POINT ( 'NONE',  ( -9.999999999999998224, 10.00000000000000355, 10.00000000000000000 ) ) ;
#58 = CC_DESIGN_DATE_AND_TIME_ASSIGNMENT ( #207, #14, ( #239 ) ) ;
#59 = PRODUCT ( 'N-SF1-BPBSC-20-620-1000', 'N-SF1-BPBSC-20-620-1000', '', ( #305 ) ) ;
#60 = DIRECTION ( 'NONE',  ( 0.000000000000000000, -0.000000000000000000, 1.000000000000000000 ) ) ;
#61 = APPROVAL_PERSON_ORGANIZATION ( #296, #45, #42 ) ;
#62 = FACE_OUTER_BOUND ( 'NONE', #238, .T. ) ;
#63 = VECTOR ( 'NONE', #284, 1000.000000000000000 ) ;
#64 = PERSON_AND_ORGANIZATION ( #97, #264 ) ;
#65 = EDGE_CURVE ( 'NONE', #263, #122, #269, .T. ) ;
#66 = LINE ( 'NONE', #57, #85 ) ;
#67 = CALENDAR_DATE ( 2021, 5, 1 ) ;
#68 = SECURITY_CLASSIFICATION_LEVEL ( 'unclassified' ) ;
#69 = ADVANCED_FACE ( 'NONE', ( #147 ), #1, .F. ) ;
#70 = AXIS2_PLACEMENT_3D ( 'NONE', #113, #310, #204 ) ;
#71 = PERSON_AND_ORGANIZATION ( #97, #264 ) ;
#72 = SHAPE_DEFINITION_REPRESENTATION ( #6, #152 ) ;
#73 = ADVANCED_FACE ( 'NONE', ( #307 ), #223, .F. ) ;
#74 = VERTEX_POINT ( 'NONE', #276 ) ;
#75 = LINE ( 'NONE', #144, #268 ) ;
#76 = CARTESIAN_POINT ( 'NONE',  ( -10.00000000000000178, -9.999999999999996447, 10.00000000000000000 ) ) ;
#77 = VECTOR ( 'NONE', #213, 1000.000000000000000 ) ;
#78 = CARTESIAN_POINT ( 'NONE',  ( -10.00000000000000178, -9.999999999999996447, 10.00000000000000000 ) ) ;
#79 = CC_DESIGN_DATE_AND_TIME_ASSIGNMENT ( #165, #313, ( #241 ) ) ;
#80 = LINE ( 'NONE', #110, #300 ) ;
#81 = ORIENTED_EDGE ( 'NONE', *, *, #168, .F. ) ;
#82 = DIRECTION ( 'NONE',  ( 1.000000000000000000, 0.000000000000000000, 0.000000000000000000 ) ) ;
#83 = LINE ( 'NONE', #3, #179 ) ;
#84 = VECTOR ( 'NONE', #7, 1000.000000000000000 ) ;
#85 = VECTOR ( 'NONE', #274, 1000.000000000000000 ) ;
#86 = CARTESIAN_POINT ( 'NONE',  ( 0.000000000000000000, 0.000000000000000000, -10.00000000000000000 ) ) ;
#87 = CARTESIAN_POINT ( 'NONE',  ( 10.00000000000000178, 9.999999999999998224, 10.00000000000000000 ) ) ;
#88 = PLANE ( 'NONE',  #139 ) ;
#89 = CARTESIAN_POINT ( 'NONE',  ( -9.999999999999998224, -10.00000000000000000, 10.00000000000000000 ) ) ;
#90 = ADVANCED_FACE ( 'NONE', ( #205 ), #88, .F. ) ;
#91 = APPROVAL_DATE_TIME ( #137, #109 ) ;
#92 = DIRECTION ( 'NONE',  ( 2.220446049250313081E-16, 1.000000000000000000, 0.000000000000000000 ) ) ;
#93 = DATE_AND_TIME ( #311, #124 ) ;
#94 = CARTESIAN_POINT ( 'NONE',  ( -9.999999999999998224, -10.00000000000000000, 10.00000000000000000 ) ) ;
#95 = APPROVAL_STATUS ( 'not_yet_approved' ) ;
#96 = ORIENTED_EDGE ( 'NONE', *, *, #65, .T. ) ;
#97 = PERSON ( 'UNSPECIFIED', 'UNSPECIFIED', 'UNSPECIFIED', ('UNSPECIFIED'), ('UNSPECIFIED'), ('UNSPECIFIED') ) ;
#98 = CC_DESIGN_PERSON_AND_ORGANIZATION_ASSIGNMENT ( #157, #52, ( #59 ) ) ;
#99 = PERSON_AND_ORGANIZATION ( #97, #264 ) ;
#100 = EDGE_LOOP ( 'NONE', ( #192, #108, #53 ) ) ;
#101 = CC_DESIGN_PERSON_AND_ORGANIZATION_ASSIGNMENT ( #71, #314, ( #38 ) ) ;
#102 = ORIENTED_EDGE ( 'NONE', *, *, #8, .F. ) ;
#103 = CARTESIAN_POINT ( 'NONE',  ( -10.00000000000000178, -9.999999999999996447, -10.00000000000000000 ) ) ;
#104 = LOCAL_TIME ( 10, 14, 40.00000000000000000, #159 ) ;
#105 = LINE ( 'NONE', #174, #254 ) ;
#106 = EDGE_CURVE ( 'NONE', #21, #295, #282, .T. ) ;
#107 = CARTESIAN_POINT ( 'NONE',  ( 10.00000000000000178, -10.00000000000000000, 10.00000000000000000 ) ) ;
#108 = ORIENTED_EDGE ( 'NONE', *, *, #200, .F. ) ;
#109 = APPROVAL ( #186, 'UNSPECIFIED' ) ;
#110 = CARTESIAN_POINT ( 'NONE',  ( 10.00000000000000000, 10.00000000000000000, -10.00000000000000000 ) ) ;
#111 = VECTOR ( 'NONE', #256, 1000.000000000000000 ) ;
#112 = CARTESIAN_POINT ( 'NONE',  ( 10.00000000000000178, -10.00000000000000000, -10.00000000000000000 ) ) ;
#113 = CARTESIAN_POINT ( 'NONE',  ( 0.000000000000000000, 0.000000000000000000, -10.00000000000000000 ) ) ;
#114 =( NAMED_UNIT ( * ) PLANE_ANGLE_UNIT ( ) SI_UNIT ( $, .RADIAN. ) );
#115 = PLANE ( 'NONE',  #195 ) ;
#116 = APPLICATION_PROTOCOL_DEFINITION ( 'international standard', 'config_control_design', 1994, #306 ) ;
#117 = FACE_OUTER_BOUND ( 'NONE', #140, .T. ) ;
#118 = PRODUCT_RELATED_PRODUCT_CATEGORY ( 'detail', '', ( #59 ) ) ;
#119 = CLOSED_SHELL ( 'NONE', ( #290, #90, #69, #270, #198 ) ) ;
#120 = VERTEX_POINT ( 'NONE', #156 ) ;
#121 = AXIS2_PLACEMENT_3D ( 'NONE', #243, #215, #148 ) ;
#122 = VERTEX_POINT ( 'NONE', #37 ) ;
#123 = ORIENTED_EDGE ( 'NONE', *, *, #200, .T. ) ;
#124 = LOCAL_TIME ( 10, 14, 40.00000000000000000, #258 ) ;
#125 = DIRECTION ( 'NONE',  ( -0.000000000000000000, 1.000000000000000000, -0.000000000000000000 ) ) ;
#126 = AXIS2_PLACEMENT_3D ( 'NONE', #248, #231, #227 ) ;
#127 = ORIENTED_EDGE ( 'NONE', *, *, #221, .F. ) ;
#128 = ORIENTED_EDGE ( 'NONE', *, *, #31, .T. ) ;
#129 = ORIENTED_EDGE ( 'NONE', *, *, #150, .F. ) ;
#130 = FACE_OUTER_BOUND ( 'NONE', #40, .T. ) ;
#131 = PLANE ( 'NONE',  #280 ) ;
#132 = LINE ( 'NONE', #180, #84 ) ;
#133 = DIRECTION ( 'NONE',  ( 0.000000000000000000, -0.000000000000000000, 1.000000000000000000 ) ) ;
#134 = DIRECTION ( 'NONE',  ( 0.000000000000000000, -0.000000000000000000, 1.000000000000000000 ) ) ;
#135 = UNCERTAINTY_MEASURE_WITH_UNIT (LENGTH_MEASURE( 1.000000000000000082E-05 ), #155, 'distance_accuracy_value', 'NONE');
#136 = EDGE_CURVE ( 'NONE', #315, #120, #10, .T. ) ;
#137 = DATE_AND_TIME ( #138, #143 ) ;
#138 = CALENDAR_DATE ( 2021, 5, 1 ) ;
#139 = AXIS2_PLACEMENT_3D ( 'NONE', #89, #232, #134 ) ;
#140 = EDGE_LOOP ( 'NONE', ( #171, #48, #102 ) ) ;
#141 = ORIENTED_EDGE ( 'NONE', *, *, #56, .T. ) ;
#142 = CALENDAR_DATE ( 2021, 5, 1 ) ;
#143 = LOCAL_TIME ( 10, 14, 40.00000000000000000, #160 ) ;
#144 = CARTESIAN_POINT ( 'NONE',  ( 10.00000000000000178, 9.999999999999998224, 10.00000000000000000 ) ) ;
#145 = ORIENTED_EDGE ( 'NONE', *, *, #319, .T. ) ;
#146 = VECTOR ( 'NONE', #51, 1000.000000000000000 ) ;
#147 = FACE_OUTER_BOUND ( 'NONE', #27, .T. ) ;
#148 = DIRECTION ( 'NONE',  ( 0.000000000000000000, 0.000000000000000000, 1.000000000000000000 ) ) ;
#149 = DIRECTION ( 'NONE',  ( 0.7071067811865475727, 0.7071067811865474617, 0.000000000000000000 ) ) ;
#150 = EDGE_CURVE ( 'NONE', #297, #74, #83, .T. ) ;
#151 = CARTESIAN_POINT ( 'NONE',  ( 10.00000000000000178, 9.999999999999998224, 10.00000000000000000 ) ) ;
#152 = ADVANCED_BREP_SHAPE_REPRESENTATION ( 'N-SF1-BPBSC-20-620-1000', ( #257, #249, #316 ), #259 ) ;
#153 = DIRECTION ( 'NONE',  ( 1.000000000000000000, 0.000000000000000000, 0.000000000000000000 ) ) ;
#154 = LINE ( 'NONE', #34, #261 ) ;
#155 =( LENGTH_UNIT ( ) NAMED_UNIT ( * ) SI_UNIT ( .MILLI., .METRE. ) );
#156 = CARTESIAN_POINT ( 'NONE',  ( 10.00000000000000178, -10.00000000000000000, 10.00000000000000000 ) ) ;
#157 = PERSON_AND_ORGANIZATION ( #97, #264 ) ;
#158 = FACE_OUTER_BOUND ( 'NONE', #100, .T. ) ;
#159 = COORDINATED_UNIVERSAL_TIME_OFFSET ( 8, 0, .AHEAD. ) ;
#160 = COORDINATED_UNIVERSAL_TIME_OFFSET ( 8, 0, .AHEAD. ) ;
#161 = LINE ( 'NONE', #94, #63 ) ;
#162 = APPROVAL_PERSON_ORGANIZATION ( #64, #109, #39 ) ;
#163 = APPROVAL_ROLE ( '' ) ;
#164 = EDGE_LOOP ( 'NONE', ( #145, #128, #189 ) ) ;
#165 = DATE_AND_TIME ( #142, #212 ) ;
#166 = VERTEX_POINT ( 'NONE', #201 ) ;
#167 = AXIS2_PLACEMENT_3D ( 'NONE', #151, #225, #149 ) ;
#168 = EDGE_CURVE ( 'NONE', #263, #240, #66, .T. ) ;
#169 = ORIENTED_EDGE ( 'NONE', *, *, #173, .F. ) ;
#170 = ADVANCED_FACE ( 'NONE', ( #278 ), #302, .F. ) ;
#171 = ORIENTED_EDGE ( 'NONE', *, *, #291, .F. ) ;
#172 = LINE ( 'NONE', #107, #77 ) ;
#173 = EDGE_CURVE ( 'NONE', #122, #166, #154, .T. ) ;
#174 = CARTESIAN_POINT ( 'NONE',  ( -10.00000000000000178, -9.999999999999996447, 10.00000000000000000 ) ) ;
#175 = LINE ( 'NONE', #76, #24 ) ;
#176 = CARTESIAN_POINT ( 'NONE',  ( -9.999999999999998224, -10.00000000000000000, 10.00000000000000000 ) ) ;
#177 = CC_DESIGN_APPROVAL ( #45, ( #239 ) ) ;
#178 = DIRECTION ( 'NONE',  ( -0.000000000000000000, -0.000000000000000000, -1.000000000000000000 ) ) ;
#179 = VECTOR ( 'NONE', #178, 1000.000000000000000 ) ;
#180 = CARTESIAN_POINT ( 'NONE',  ( 10.00000000000000000, 10.00000000000000000, 10.00000000000000000 ) ) ;
#181 = DIRECTION ( 'NONE',  ( 1.000000000000000000, 0.000000000000000000, 0.000000000000000000 ) ) ;
#182 = ADVANCED_FACE ( 'NONE', ( #117 ), #251, .T. ) ;
#183 = CARTESIAN_POINT ( 'NONE',  ( 10.00000000000000178, 9.999999999999998224, 10.00000000000000000 ) ) ;
#184 = DIRECTION ( 'NONE',  ( -0.000000000000000000, 0.000000000000000000, -1.000000000000000000 ) ) ;
#185 = PLANE ( 'NONE',  #167 ) ;
#186 = APPROVAL_STATUS ( 'not_yet_approved' ) ;
#187 = DIRECTION ( 'NONE',  ( 0.7071067811865475727, 0.7071067811865474617, 0.000000000000000000 ) ) ;
#188 = AXIS2_PLACEMENT_3D ( 'NONE', #219, #228, #82 ) ;
#189 = ORIENTED_EDGE ( 'NONE', *, *, #244, .T. ) ;
#190 = COORDINATED_UNIVERSAL_TIME_OFFSET ( 8, 0, .AHEAD. ) ;
#191 = ORIENTED_EDGE ( 'NONE', *, *, #106, .T. ) ;
#192 = ORIENTED_EDGE ( 'NONE', *, *, #26, .F. ) ;
#193 = DIRECTION ( 'NONE',  ( 2.220446049250313081E-16, 1.000000000000000000, 0.000000000000000000 ) ) ;
#194 = DIRECTION ( 'NONE',  ( -0.000000000000000000, 0.000000000000000000, -1.000000000000000000 ) ) ;
#195 = AXIS2_PLACEMENT_3D ( 'NONE', #36, #312, #187 ) ;
#196 = ORIENTED_EDGE ( 'NONE', *, *, #244, .F. ) ;
#197 = DIRECTION ( 'NONE',  ( 0.000000000000000000, 0.000000000000000000, 1.000000000000000000 ) ) ;
#198 = ADVANCED_FACE ( 'NONE', ( #158 ), #5, .F. ) ;
#199 = DIRECTION ( 'NONE',  ( -0.7071067811865475727, -0.7071067811865474617, 0.000000000000000000 ) ) ;
#200 = EDGE_CURVE ( 'NONE', #295, #74, #304, .T. ) ;
#201 = CARTESIAN_POINT ( 'NONE',  ( 10.00000000000000000, 10.00000000000000000, -10.00000000000000000 ) ) ;
#202 = AXIS2_PLACEMENT_3D ( 'NONE', #86, #60, #279 ) ;
#203 = PLANE ( 'NONE',  #188 ) ;
#204 = DIRECTION ( 'NONE',  ( 1.000000000000000000, 0.000000000000000000, 0.000000000000000000 ) ) ;
#205 = FACE_OUTER_BOUND ( 'NONE', #47, .T. ) ;
#206 = CLOSED_SHELL ( 'NONE', ( #218, #30, #73, #182, #170 ) ) ;
#207 = DATE_AND_TIME ( #234, #226 ) ;
#208 = PERSON_AND_ORGANIZATION_ROLE ( 'classification_officer' ) ;
#209 = APPROVAL_STATUS ( 'not_yet_approved' ) ;
#210 = ORIENTED_EDGE ( 'NONE', *, *, #224, .T. ) ;
#211 = ORIENTED_EDGE ( 'NONE', *, *, #150, .T. ) ;
#212 = LOCAL_TIME ( 10, 14, 40.00000000000000000, #190 ) ;
#213 = DIRECTION ( 'NONE',  ( -0.000000000000000000, -0.000000000000000000, -1.000000000000000000 ) ) ;
#214 = EDGE_LOOP ( 'NONE', ( #262, #169, #41, #141 ) ) ;
#215 = DIRECTION ( 'NONE',  ( -1.000000000000000000, 0.000000000000000000, 0.000000000000000000 ) ) ;
#216 = VECTOR ( 'NONE', #193, 1000.000000000000000 ) ;
#217 = DIRECTION ( 'NONE',  ( -0.7071067811865475727, -0.7071067811865474617, 0.000000000000000000 ) ) ;
#218 = ADVANCED_FACE ( 'NONE', ( #9 ), #115, .F. ) ;
#219 = CARTESIAN_POINT ( 'NONE',  ( 0.000000000000000000, 0.000000000000000000, 10.00000000000000000 ) ) ;
#220 = DIRECTION ( 'NONE',  ( 1.000000000000000000, -2.220446049250313081E-16, 0.000000000000000000 ) ) ;
#221 = EDGE_CURVE ( 'NONE', #315, #21, #161, .T. ) ;
#222 = APPLICATION_PROTOCOL_DEFINITION ( 'international standard', 'config_control_design', 1994, #293 ) ;
#223 = PLANE ( 'NONE',  #126 ) ;
#224 = EDGE_CURVE ( 'NONE', #297, #315, #255, .T. ) ;
#225 = DIRECTION ( 'NONE',  ( 0.7071067811865474617, -0.7071067811865475727, 0.000000000000000000 ) ) ;
#226 = LOCAL_TIME ( 10, 14, 40.00000000000000000, #309 ) ;
#227 = DIRECTION ( 'NONE',  ( 0.000000000000000000, 0.000000000000000000, 1.000000000000000000 ) ) ;
#228 = DIRECTION ( 'NONE',  ( -0.000000000000000000, 0.000000000000000000, 1.000000000000000000 ) ) ;
#229 = CARTESIAN_POINT ( 'NONE',  ( 10.00000000000000178, 9.999999999999998224, -10.00000000000000000 ) ) ;
#230 =( NAMED_UNIT ( * ) SI_UNIT ( $, .STERADIAN. ) SOLID_ANGLE_UNIT ( ) );
#231 = DIRECTION ( 'NONE',  ( -2.220446049250313081E-16, -1.000000000000000000, 0.000000000000000000 ) ) ;
#232 = DIRECTION ( 'NONE',  ( 0.000000000000000000, 1.000000000000000000, 0.000000000000000000 ) ) ;
#233 = VECTOR ( 'NONE', #298, 1000.000000000000000 ) ;
#234 = CALENDAR_DATE ( 2021, 5, 1 ) ;
#235 = ORIENTED_EDGE ( 'NONE', *, *, #56, .F. ) ;
#236 = DATE_AND_TIME ( #67, #104 ) ;
#237 = APPROVAL_PERSON_ORGANIZATION ( #288, #20, #163 ) ;
#238 = EDGE_LOOP ( 'NONE', ( #265, #127, #294, #211 ) ) ;
#239 = PRODUCT_DEFINITION ( 'UNKNOWN', '', #38, #246 ) ;
#240 = VERTEX_POINT ( 'NONE', #303 ) ;
#241 = SECURITY_CLASSIFICATION ( '', '', #68 ) ;
#242 = ORIENTED_EDGE ( 'NONE', *, *, #18, .F. ) ;
#243 = CARTESIAN_POINT ( 'NONE',  ( 10.00000000000000178, 9.999999999999998224, 10.00000000000000000 ) ) ;
#244 = EDGE_CURVE ( 'NONE', #240, #166, #275, .T. ) ;
#245 = ORIENTED_EDGE ( 'NONE', *, *, #136, .T. ) ;
#246 = DESIGN_CONTEXT ( 'detailed design', #306, 'design' ) ;
#247 = ORIENTED_EDGE ( 'NONE', *, *, #8, .T. ) ;
#248 = CARTESIAN_POINT ( 'NONE',  ( 10.00000000000000000, 10.00000000000000000, 10.00000000000000000 ) ) ;
#249 = MANIFOLD_SOLID_BREP ( '¾µÏ', #206 ) ;
#250 = CARTESIAN_POINT ( 'NONE',  ( 0.000000000000000000, 0.000000000000000000, 0.000000000000000000 ) ) ;
#251 = PLANE ( 'NONE',  #4 ) ;
#252 = DIRECTION ( 'NONE',  ( 0.000000000000000000, 0.000000000000000000, 1.000000000000000000 ) ) ;
#253 = CARTESIAN_POINT ( 'NONE',  ( -9.999999999999998224, -10.00000000000000000, -10.00000000000000000 ) ) ;
#254 = VECTOR ( 'NONE', #194, 1000.000000000000000 ) ;
#255 = LINE ( 'NONE', #183, #22 ) ;
#256 = DIRECTION ( 'NONE',  ( -0.000000000000000000, 1.000000000000000000, -0.000000000000000000 ) ) ;
#257 = MANIFOLD_SOLID_BREP ( 'Í¹Ì¨-À', #119 ) ;
#258 = COORDINATED_UNIVERSAL_TIME_OFFSET ( 8, 0, .AHEAD. ) ;
#259 =( GEOMETRIC_REPRESENTATION_CONTEXT ( 3 ) GLOBAL_UNCERTAINTY_ASSIGNED_CONTEXT ( ( #135 ) ) GLOBAL_UNIT_ASSIGNED_CONTEXT ( ( #155, #114, #230 ) ) REPRESENTATION_CONTEXT ( 'NONE', 'WORKASPACE' ) );
#260 = ORIENTED_EDGE ( 'NONE', *, *, #168, .T. ) ;
#261 = VECTOR ( 'NONE', #184, 1000.000000000000000 ) ;
#262 = ORIENTED_EDGE ( 'NONE', *, *, #319, .F. ) ;
#263 = VERTEX_POINT ( 'NONE', #35 ) ;
#264 = ORGANIZATION ( 'UNSPECIFIED', 'UNSPECIFIED', '' ) ;
#265 = ORIENTED_EDGE ( 'NONE', *, *, #26, .T. ) ;
#266 = EDGE_LOOP ( 'NONE', ( #196, #81, #96, #299 ) ) ;
#267 = FACE_OUTER_BOUND ( 'NONE', #292, .T. ) ;
#268 = VECTOR ( 'NONE', #125, 1000.000000000000000 ) ;
#269 = LINE ( 'NONE', #50, #146 ) ;
#270 = ADVANCED_FACE ( 'NONE', ( #130 ), #203, .T. ) ;
#271 = CARTESIAN_POINT ( 'NONE',  ( -9.999999999999998224, -10.00000000000000000, -10.00000000000000000 ) ) ;
#272 = ORIENTED_EDGE ( 'NONE', *, *, #17, .T. ) ;
#273 = VECTOR ( 'NONE', #217, 1000.000000000000000 ) ;
#274 = DIRECTION ( 'NONE',  ( -0.000000000000000000, 0.000000000000000000, -1.000000000000000000 ) ) ;
#275 = LINE ( 'NONE', #55, #233 ) ;
#276 = CARTESIAN_POINT ( 'NONE',  ( 10.00000000000000178, 9.999999999999998224, -10.00000000000000000 ) ) ;
#277 = CARTESIAN_POINT ( 'NONE',  ( -10.00000000000000178, -9.999999999999996447, 10.00000000000000000 ) ) ;
#278 = FACE_OUTER_BOUND ( 'NONE', #164, .T. ) ;
#279 = DIRECTION ( 'NONE',  ( 2.220446049250313081E-16, 1.000000000000000000, 0.000000000000000000 ) ) ;
#280 = AXIS2_PLACEMENT_3D ( 'NONE', #78, #220, #197 ) ;
#281 = PERSON_AND_ORGANIZATION_ROLE ( 'design_supplier' ) ;
#282 = LINE ( 'NONE', #253, #19 ) ;
#283 = PERSON_AND_ORGANIZATION ( #97, #264 ) ;
#284 = DIRECTION ( 'NONE',  ( -0.000000000000000000, -0.000000000000000000, -1.000000000000000000 ) ) ;
#285 = PERSON_AND_ORGANIZATION_ROLE ( 'creator' ) ;
#286 = CC_DESIGN_APPROVAL ( #20, ( #241 ) ) ;
#287 = ORIENTED_EDGE ( 'NONE', *, *, #18, .T. ) ;
#288 = PERSON_AND_ORGANIZATION ( #97, #264 ) ;
#289 = ORIENTED_EDGE ( 'NONE', *, *, #17, .F. ) ;
#290 = ADVANCED_FACE ( 'NONE', ( #62 ), #185, .F. ) ;
#291 = EDGE_CURVE ( 'NONE', #122, #321, #132, .T. ) ;
#292 = EDGE_LOOP ( 'NONE', ( #43, #235, #247, #260 ) ) ;
#293 = APPLICATION_CONTEXT ( 'configuration controlled 3d designs of mechanical parts and assemblies' ) ;
#294 = ORIENTED_EDGE ( 'NONE', *, *, #224, .F. ) ;
#295 = VERTEX_POINT ( 'NONE', #112 ) ;
#296 = PERSON_AND_ORGANIZATION ( #97, #264 ) ;
#297 = VERTEX_POINT ( 'NONE', #87 ) ;
#298 = DIRECTION ( 'NONE',  ( 1.000000000000000000, -2.220446049250313081E-16, 0.000000000000000000 ) ) ;
#299 = ORIENTED_EDGE ( 'NONE', *, *, #173, .T. ) ;
#300 = VECTOR ( 'NONE', #199, 1000.000000000000000 ) ;
#301 = DIRECTION ( 'NONE',  ( -0.7071067811865475727, -0.7071067811865474617, 0.000000000000000000 ) ) ;
#302 = PLANE ( 'NONE',  #202 ) ;
#303 = CARTESIAN_POINT ( 'NONE',  ( -9.999999999999998224, 10.00000000000000355, -10.00000000000000000 ) ) ;
#304 = LINE ( 'NONE', #229, #111 ) ;
#305 = MECHANICAL_CONTEXT ( 'NONE', #293, 'mechanical' ) ;
#306 = APPLICATION_CONTEXT ( 'configuration controlled 3d designs of mechanical parts and assemblies' ) ;
#307 = FACE_OUTER_BOUND ( 'NONE', #266, .T. ) ;
#308 = CC_DESIGN_PERSON_AND_ORGANIZATION_ASSIGNMENT ( #99, #208, ( #241 ) ) ;
#309 = COORDINATED_UNIVERSAL_TIME_OFFSET ( 8, 0, .AHEAD. ) ;
#310 = DIRECTION ( 'NONE',  ( -0.000000000000000000, 0.000000000000000000, 1.000000000000000000 ) ) ;
#311 = CALENDAR_DATE ( 2021, 5, 1 ) ;
#312 = DIRECTION ( 'NONE',  ( -0.7071067811865474617, 0.7071067811865475727, 0.000000000000000000 ) ) ;
#313 = DATE_TIME_ROLE ( 'classification_date' ) ;
#314 = PERSON_AND_ORGANIZATION_ROLE ( 'creator' ) ;
#315 = VERTEX_POINT ( 'NONE', #176 ) ;
#316 = AXIS2_PLACEMENT_3D ( 'NONE', #250, #252, #153 ) ;
#317 = VECTOR ( 'NONE', #181, 1000.000000000000000 ) ;
#318 = LINE ( 'NONE', #28, #273 ) ;
#319 = EDGE_CURVE ( 'NONE', #166, #15, #80, .T. ) ;
#320 = LINE ( 'NONE', #103, #216 ) ;
#321 = VERTEX_POINT ( 'NONE', #277 ) ;
ENDSEC;
END-ISO-10303-21;
